Category: животные

Category was added automatically. Read all entries about "животные".

litewarp

Мельница - Волкодав

Мельница "Волкодав"

Музыка - Аркадий Духин и Наталья О\'Шей
Слова - Александр Шаганов и Алексей Сапков



Оригинал взят у gmishka в Мельница Волкодав (Соло)



E-------------------------3------------------------------------------
B---------------6-----------6p5p3------3------------------6----------
G--5p4h5--2-4-5-----2-4-5--------5-4-5---5-4--------2-4-5------------
D--------------------------------------------5-2--2---------8b10-10-8
A--------------------------------------------------------------------
E--------------------------------------------------------------------

E---------------------------------------------------------------------
B-9h10h12p10------------------8-12-12b13-13-10----15b17-15-12-15-12---
G------------9-10------7-9--9------------------10-------------------14
D-----------------9-11------------------------------------------------
A---------------------------------------------------------------------
E---------------------------------------------------------------------

E---------------------------------------------------------------------
B-12----------------------------------------------10-11-10h11p10------
G----14-12-14-12---12-----------------------12-14----------------14-12
D---------------14----14-12-14-12----12-14----------------------------
A---------------------------------15----------------------------------
E---------------------------------------------------------------------

E---------------------------------------------------------------------
B-----------------------------------------12h13p15p13-12h13-----------
G-14-12h14p12-----------------------------------------------12-13--12-
D-------------14--12-14-12h14p12----12--------------------------------
A--------------------------------15----12-----------------------------
E---------------------------------------------------------------------


E---------------------------------------------------------------------
B---12-15-12-13-------------------------------------------------------
G-13------------------------------------------------------------------
D---------------------------------------------------------------------
A---------------------------------------------------------------------
E---------------------------------------------------------------------




Вот еще текст с аккордами, наиболее полными:

Collapse )